Face2Face и Достойные Внимания Среда, 2020-09-30, 8:45 PM
Главная | Регистрация | Вход Приветствую Вас Незарегистрированный | RSS
Меню сайта

Наш опрос
Как вы собираетесь приобрести "Последний Альбом" Noize MC?

[ Результаты · Архив опросов ]

Всего ответов: 958

Главная » 2007 » Апрель » 13
Face2Face - Кошка (аккорды + текст)
Face2Face - Кошка

Вступление и припев (звездочками отмечена реприза, повтор):

Dm Gm
E||------------------0--||---1-----------------------|
H||---------------3-----||------3-----1--------------|
G||------------2--------||*--------2--------3-----2~-|
D||---------------------||*--0-----------------3-----|
A||---------------------||---------------1-----------|
E||---------------------||---------------------------|

F A7 Dm Gm
|-----------------------0---||--1-----------------------|
|--------------------3------||-----3-----1--------------|
|-----------2-----2--------*||--------2--------3-----2~-|
|--------3-----------------*||--0-----------------3-----|
|-----3----- ... Читать дальше »

Reads: 10168 | Added by: TranQ | Added: | Comments (9)

Face2Face- картинки (version) [ скачать ]
Face2Face- картинки(version) . Известная всем песня картинки ,с измененной музыкой и припевом,менее резкая,но слушается все также,с замиранием сердца


Face2Face - Картинки скачатьhttp://f2f.clan.su/load/1-1-0-31

Reads: 1013 | Added by: TranQ | Added: | Comments (1)

Форма входа
Логин:
Пароль:

Календарь новостей
«  Апрель 2007  »
ПнВтСрЧтПтСбВс
      1
2345678
9101112131415
16171819202122
23242526272829
30

Поиск

Друзья сайта

Статистика

Surfing Bandit P.R. © 2005 - 2020 Сайт управляется системой uCoz